No estás identificado como Usuario de Mya, Si no estás registrado podes hacerlo acá: Registrarse

Usuarios activos:
jano_escobar(cerca de 8 horas) |Sebas(cerca de 8 horas) |Rafatango(1 día) |Carlos(cerca de 3 días) |guitarman(cerca de 3 días) |

Identificacion de Usuario

Olvidé mi clave
Viendo 1 - 9 de un total de 5000
1 2 3 4 5 »
Actualizar
hagan andar la pagina!!!!!! vamos!!!!!!! Sebas 24/06/2016 - 21:48
NI LETRA NI ACORDES... guitarman 21/06/2016 - 20:13
QUE LASTIMA.... ERA UNA BUENA PAGINA guitarman 21/06/2016 - 20:12
NO SE VEN LOS ACORDES guitarman 21/06/2016 - 20:12
Sebas 15/06/2016 - 22:53
acordes cramello 12/06/2016 - 08:23
NO SE VEN LOS ACORDES Sergei 11/06/2016 - 23:35
partitura ttturbo 09/06/2016 - 06:40
como hago para ver las canciones con sus acordes? Ange 01/06/2016 - 15:02

Arpaviejas - La papela

(0) Oskar :: puntos: 0 :: visitas: 1022 :: perlas negras 0 :: Agregar a Favoritos :: creado 21/01/2010 - 09:36
Artista: Arpaviejas

Cancion: La papela

----------------------------------------------------
----------------------------------------------------
----------------------------------------------------
----------------------------------------------------
--7-77777--3-33333--------7-77777--5-55555----------
--5-55555--1-11111--------5-55555--3-33333----------

Kizas, un dia tal vez Kizas solo una vez



-----------------------------------------------------
-----------------------------------------------------
-----------------------------------------------------
-----------------------------------------------------
--7-77777--5-55555-----3-33333-----5-55555-----------
--5-55555--3-33333-----1-11111-----3-33333-----------

Kizas no supe decirte la ultima vez


(Despues sigue igual)

-----------------------------------------------------
-----------------------------------------------------
-----------------------------------------------------
-----------------------------------------------------
--333333--55555--77777-----------------------------
--111111--33333--55555-----------------------------

AAAiaaaiaiiaaaaaaa

Como veis, la cancion solo tiene esas quintas.

Espero que os haia servido de ayuda! saludos!

Se debe estar registrado y logueado para recomendar este post a un amigo
No hay Comentarios :(
Registrate para Agregar Comentarios...