No estás identificado como Usuario de Mya, Si no estás registrado podes hacerlo acá: Registrarse

Usuarios activos:
domenico1560(1 día) |manne(cerca de 3 días) |javi29(cerca de 3 días) |bochamdq(cerca de 3 días) |suarec330(cerca de 5 días) |

Identificacion de Usuario

Olvidé mi clave
Viendo 1 - 9 de un total de 5000
1 2 3 4 5 »
Actualizar
TUTORIAL DE ACORDEON Cristo 15/05/2014 - 10:08
lucio dalla Cristo 07/05/2014 - 13:47
mano a mano wawer 06/05/2014 - 19:22
hola a todos ...despues de algun tiempo aqui otra vez domenico1560 29/04/2014 - 12:25
Oblivion Jorgesito 11/04/2014 - 09:18
problemas para loguearme, solo pude entrar con firefox, no se si es mi compu o a todos les pasa, desde ayer javi29 07/04/2014 - 20:53
ojos de cielo Maxiii10 05/04/2014 - 10:29
lucia suarec330 27/03/2014 - 17:11
Letras de Canciones Augus_2013 24/02/2014 - 14:31

ARPEGIOS para guitarra

(1212) javi29 :: puntos: 44 :: visitas: 171340 :: perlas negras 0 :: Agregar a Favoritos :: creado 22/11/2008 - 11:15 :: editado 13/04/2011 - 15:40
los arpegios son otra forma de tocar los acordes, en los acordes se tocan las notas en forma simultanea ej EN DO, tocamos las notas DO, MI y SOL juntas
en los arpegios tocamos las notas en forma sucesiva o sea ej EN DO, tocamos primero la nota DO, luego la nota MI, y luego la nota SOL

Vamos a comenzar desde lo mas sencillo
Voy a colocarlos graficando las cuerdas de la guitarra de esta manera:

e--------------------------- esta seria la 1ra cuerda (la inferior) el MI agudo
B--------------------------- 2da cuerda (el SI)
G--------------------------- 3ra cuerda (el SOL)
D--------------------------- 4ta cuerda (el RE)
A--------------------------- 5ta cuerda (el LA)
E--------------------------- 6ta cuerda (el MI grave) la mas gruesa (la de arriba)



ARPEGIO de 3 notas (comenzando desde la nota que marca el acordes, el bajo)
como ejemplo pondre 3 acordes con distintos bajos SOL, DO y RE


__________SOL_______________________DO________________________RE

e------------------3----|--------------------0----|---------------------2--
B----------0------------|-----------1-------------|------------3-----------
G-----------------------|-------------------------|------------------------
D-----------------------|-------------------------|--0---------------------
A-----------------------|----3--------------------|------------------------
E----3------------------|-------------------------|------------------------


los numeros marcan el numero de traste que se debe pisar, 0 es cuerda al aire
la cuerda grave se debe tocar con el pulgar y las otras con los demas dedos (indice y mayor en este caso)
los acordes que llevan el bajo en la 6ta cuerda (la mas gruesa) son:
MI, FA, FA#, SOL y SOL#
los que llevan el bajo en la 5ta cuerda son:
LA, LA#, SI, DO y DO#
y los que llevan el bajo en la 4ta cuerda son:
RE y RE#

en este caso use el bajo y las 2 cuerdas inferiores
podemos hacer tambien el bajo y la 2da y 3ra cuerda

ARPEGIO DE 4 notas (este ya queda mas bonito)

__________SOL_______________________DO________________________RE

e------------------3----|--------------------0----|---------------------2--
B-------------0---------|--------------1----------|--------------3---------
G--------0--------------|--------0----------------|-------2----------------
D-----------------------|-------------------------|--0---------------------
A-----------------------|----3--------------------|------------------------
E----3------------------|-------------------------|------------------------


aca tocamos el bajo con el pulgar y luego dedos indice, mayor y anular (3ra, 2da y 1ra cuerda)
opcion:podemos invertirlo y tocar bajo, luego 1ra cuerda, 2da y 3ra
--------------------------------------------------------------------------------------------------------------------------------

ARPEGIO DE 6 notas

__________SOL_______________________DO__________________RE

e-------------3---------|-----------0--------|-----------2----------
B----------0-----0------|--------1-----1-----|--------3-----3-------
G-------0-----------0---|-----0-----------0--|-----2-----------2----
D-----------------------|--------------------|--0-------------------
A-----------------------|--3-----------------|----------------------
E----3------------------|--------------------|----------------------

--------------------------------------------------------------------------------------------------------------------------------

ARPEGIO DE 8 notas

__________SOL_______________________DO_________________________RE
e--------------3-----------|---------------0----------|---------2--------
B--------0-----------0-----|--------1-----------1-----|-----3-------3----
G-----0-----0-----0-----0--|-----0-----0-----0-----0--|---2---2---2---2--
D--------------------------|--------------------------|-0----------------
A--------------------------|--3-----------------------|------------------
E--3-----------------------|--------------------------|------------------

este lo pueden usar en la cancion "Rosas" de "la oreja de Van gogh", no es precisamente igual pero queda bien, los acordes son LA, SIm, F#m, etc, busquenla en la lista que esta completa
--------------------------------------------------------------------------------------------------------------------------------

ARPEGIO DE 8 notas

__________SOL__________________________DO________________________RE

e-----3---------3--------3--|-----0--------0--------0--|---2-----2-----2--
B--------0---------0--------|--------1--------1--------|-----3-----3------
G-----------0---------0-----|-----------0--------0-----|-------2-----2----
D---------------------------|--------------------------|-0----------------
A---------------------------|--3-----------------------|------------------
E--3------------------------|--------------------------|------------------


-------------------------------------------------------------------------------------------------------------------------------

ARPEGIO DE 8 notas (2 bajos- 1ro tonica, luego la 5ta)

__________SOL_______________________DO_________________________RE
e-----------3-----------3--|-----------0-----------0--|-------2-------2--
B--------0-----------0-----|--------1-----------1-----|-----3-------3----
G-----0-----------0--------|-----0-----------0--------|---2-------2------
D--------------0-----------|--------------------------|-0----------------
A--------------------------|--3-----------------------|---------0--------
E--3-----------------------|--------------3-----------|------------------


opcion 1er bajo tonica, 2do bajo la 3ra

__________SOL_______________________DO_________________________RE
e-----------3-----------3--|-----------0-----------0--|-------2-------2--
B--------0-----------0-----|--------1-----------1-----|-----3-------3----
G-----0-----------0--------|-----0-----------0--------|---2-------2------
D--------------------------|--------------2-----------|-0----------------
A--------------2-----------|--3-----------------------|------------------
E--3-----------------------|--------------------------|---------2--------


-------------------------------------------------------------------------------------------------------------------------------
ARPEGIO DE 6 notas (con la 1er nota doble)

__________SOL__________________________DO________________________RE

e--3--------3---------------|--0--------0--------------|---2-----2--------
B-----0--------0------------|-----1--------1-----------|-----3-----3------
G--------0--------0---------|--------0--------0--------|-------2-----2----
D---------------------------|--------------------------|---0--------------
A---------------------------|--3-----------------------|------------------
E--3------------------------|--------------------------|------------------

estes arpergio pueden usarlo en la cancion de bon jovi Cama de Rosas, pero con los acordes LA#6 y FA pero el bajo lo hace el bajo electrico y el resto la guitarra ej:

__________LA#6_(2veces)__________________FA_(2veces)________
e--3--------3---------------|--3--------3--------------|--
B-----6--------6------------|-----6--------6-----------|---
G--------7--------7---------|--------5--------5--------|---
D---------------------------|--3-----------------------|---
A--1------------------------|--------------------------|---
E---------------------------|--------------------------|---

asi esta original pero es dificil en la guitarra, hay que hacerlo en una posicion mas aguda, es mas facil en el piano, pero igual pueden hacerlo comun con las notas del acorde solamente, no sonara igual pero queda bien igual
-------------------------------------------------------------------------------------------------------------------------------

ARPEGIO DE 6 notas mas 2 silencios (s) = 8

__________SOL____________________________DO___________

e-------------3--s--------s--|-----------0--s--------s--|
B----------0-----s--0-----s--|--------1-----s--1-----s--|
G-------0--------s-----0--s--|-----0--------s-----0--s--|
D----------------s--------s--|--------------s--------s--|
A----------------s--------s--|--3-----------s--------s--|
E----3-----------s--------s--|--------------s--------s--|

este arpegio sirve para el tema "solo con un beso" de Ricardo Montaner usando los acordes que se indican en la cancion

---------------------------------------------------------------------------
arpegio de milonga campera

e--------------------
B------0------0------
G----0------0-----0--
D--------------------
A---------3-----2----
E--0-----------------
ej un tema de Leonardo Favio
El porton
--------------------------------------------------------------------------------
Otro arpegio de milonga campera


__________Rem____________________LA______________________LA (Otra opcion)

e-----1---------1--------1--|-----0--------0--------0--|---0-----0-----0--
B--------3---------3--------|--------2--------2--------|-----2-----2------
G-----------3---------2-----|-----------3--------2-----|-------3-----2----
D--0------------------------|--------------------------|-2----------------
A---------------------------|--0-----------------------|------------------
E---------------------------|--------------------------|------------------


ej Tema La Cupé de mi señora
http://www.youtube.com/watch?v=4vQVriPr8Ls

------------------------------------------------

Luego voy a ir agregando mas...
Se debe estar registrado y logueado para recomendar este post a un amigo
Comentarios
javi29 :: 22/11/2008 - 11:18 :: calificaciones:0 :: puntaje:0
Julian como puedo hacer para que el grafico me quede parejito, help!!
julian :: 22/11/2008 - 12:46 :: calificaciones:0 :: puntaje:0
javier, para respetar el texto en fuente monoespaciada, tenés que incuir el fragmento en cuestión, dentro de los tags [**code] y [**/code] (sin los asteriscos). Fijate cómo te edité el artículo...
javi29 :: 22/11/2008 - 13:03 :: calificaciones:0 :: puntaje:0
A ya entendi, quedo bien ahora
Khasir :: 15/09/2011 - 08:39 :: calificaciones:2 :: puntaje:2
Me ayudado mucho
Registrate para Agregar Comentarios...