No estás identificado como Usuario de Mya, Si no estás registrado podes hacerlo acá: Registrarse

Usuarios activos:
pelons21(cerca de 18 horas) |yusy25(1 día) |diegocarpintero(1 día) |trebon(cerca de 2 días) |grillo(cerca de 2 días) |

Identificacion de Usuario

Olvidé mi clave
Viendo 1 - 9 de un total de 5000
1 2 3 4 5 »
Actualizar
desencuentro WaldirAltieri 04/07/2015 - 09:04
que pasa que no puedo ingresar JJOSE 25/06/2015 - 22:09
Que esta ocurriendo que no funciona la busqueda de temas en la pagina? aleboe 22/06/2015 - 14:48
somos55 Osvaldo 28/05/2015 - 10:51
organizacionsomos@hotmail.com Osvaldo 18/05/2015 - 11:04
por fin volviste querida pagina y la mejor musicayamigos domenico1560 07/05/2015 - 11:59
save me acordes LOSCHIMICUI 20/02/2015 - 19:00
tangos carlnavi 01/01/2015 - 16:32
golonderinas revistalugones 22/12/2014 - 20:30

DAMA DE LA MENTIRA | Khafra versión con acordes para guitarra

Buscá Otra canción en MyA!!!
(434) julian :: comentarios: 0 :: calificación: 5.00 :: visitas: 270 agregar a favoritos
Registrarse para votar. 1 puntos2 puntos3 puntos4 puntos5 puntos6 puntos7 puntos8 puntos9 puntos10 puntos | Puntaje actual: 6.00
una_columnados_columnasreducir_letraaumentar_letravista_scrollver impresion con acordesver impresion sin acordes
----------------------------------------------------------------------------------------------
Sin información gráfica sobre los acordes. Dejá tu comentario para que la actualicemos!!!.
----------------------------------------------------------------------------------------------

KHAFRA
DAMA DE LA MENTIRA
ENTERRADOS EN VIVO VOL2

intro
e------------------------------------------------------------------
B------------------------------------------------------------------
G------------------------------------------------------------------
D--9-9-9-9-10-10---9-9-9-9-7-7---9-9-9-9-10-10--9-9-9-9-12-7-8-9---
A--7-7-7-7-8--8----7-7-7-7-5-5---7-7-7-7-8--8---7-7-7-7-10-5-6-7---
E------------------------------------------------------------------

e------------------------------------------------------------------
B------------------------------------------------------------------
G------------------------------------------------------------------
D--9-9-9-9-10-10---9-9-9-9-7-7---9-9-9-9-10-10--9-9-9-9-12-7-8-9---
A--7-7-7-7-8--8----7-7-7-7-5-5---7-7-7-7-8--8---7-7-7-7-10-5-6-7---
E------------------------------------------------------------------

DESDE HACE TIEMPO...
e-------------------------------------------------------
B-------------------------------------------------------
G-------------------------------------------------------
D--------------------------------------------------7-9--
A--7777777777777777-333333333333333-22222222222222-5-7--
E-------------------------------------------------------

e-------------------------------------------------------
B-------------------------------------------------------
G-------------------------------------------------------
D--------------------------------------------------7-9--
A--7777777777777777-333333333333333-22222222222222-5-7--
E-------------------------------------------------------

e----------------------------
B----------------------------
G----------------------------
D--5--7--9-----2--5-4--------
A--3--5--7-----0--3-2--3-2---
E--------------------------3-

CORO

DAMA DE LA MENTIRA

e---------------------------
B---------------------------
G---------------------------
D--9---5-------7---5-7-8-9--
A--7---3---5---5---3-5-6-7--
E----------3----------------

e---------------------------
B---------------------------
G---------------------------
D--9---5-------7---5-7-8-9--
A--7---3---5---5---3-5-6-7--
E----------3----------------


SOLO

y esto va despues
e--------------------------------------------------------
B--------------------------------------------------------
G------------4--------------------------4----------------
D------------2--------------------------2----------------
A--2-2-2222-----2-2-22-5-4----2-2-2222-----2-2-2222-5-4--
E--0-0-0000-----0-0-00-3-2----0-0-0000-----0-0-0000-3-2--

e------------------------------------------------------------------
B------------------------------------------------------------------
G------------------------------------------------------------------
D--9-9-9-9-10-10---9-9-9-9-7-7---9-9-9-9-10-10--9-9-9-9-12-7-8-9---
A--7-7-7-7-8--8----7-7-7-7-5-5---7-7-7-7-8--8---7-7-7-7-10-5-6-7---
E------------------------------------------------------------------

D--9-9-9-9-7-7--
A--7-7-7-7-5-5--
E---------------

SE QUIEN TE MUEVE
e-------------------------------------------------------
B-------------------------------------------------------
G-------------------------------------------------------
D--------------------------------------------------7-9--
A--7777777777777777-333333333333333-22222222222222-5-7--
E-------------------------------------------------------

e-------------------------------------------------------
B-------------------------------------------------------
G-------------------------------------------------------
D--------------------------------------------------7-9--
A--7777777777777777-333333333333333-22222222222222-5-7--
E-------------------------------------------------------

e----------------------------
B----------------------------
G----------------------------
D--5--7--9-----2--5-4--------
A--3--5--7-----0--3-2--3-2---
E--------------------------3-

CORO

DAMA DE LA MENTIRA

e---------------------------
B---------------------------
G---------------------------
D--9---5-------7---5-7-8-9--
A--7---3---5---5---3-5-6-7--
E----------3----------------

e---------------------------
B---------------------------
G---------------------------
D--9---5-------7---5-7-8-9--
A--7---3---5---5---3-5-6-7--
E----------3----------------

SOLO2

y esto va despues
e--------------------------------------------------------
B--------------------------------------------------------
G------------4--------------------------4----------------
D------------2--------------------------2----------------
A--2-2-2222-----2-2-22-5-4----2-2-2222-----2-2-2222-5-4--
E--0-0-0000-----0-0-00-3-2----0-0-0000-----0-0-0000-3-2--

DAMA DE LA
e---------------------------
B---------------------------
G---------------------------
D--9---5-------7---5-7-8-9--
A--7---3---5---5---3-5-6-7--
E----------3----------------

e---------------------------
B---------------------------
G---------------------------
D--9---5-------7---5-7-8-9--
A--7---3---5---5---3-5-6-7--
E----------3----------------

SOLO3

FINAL
e----------------------------
B----------------------------
G----------------------------
D--9-9-9-9-9--99999--7-9/----
A--7-7-7-7-7--77777--5-7/----
E----------------------------

DAMA DE LA MENTIRA DAMA DE LA MENTIRA AUUUUUUUUUU
ESTA BIEN SENCILLA ESTA ROLA, TOQUENLA CON ESMERO Y PASION




Esta es una transcripcion personal de un usuario de www.musicayamigos.com - El material contenido en esta pagina es para exclusivo uso privado, quedando prohibida su reproduccion o retransmision, asi como su uso con fines comerciales.
Compartí con tus amigos esta canción en tu Facebook
Poné el link en tu página o en foros!!!!
Para MySpace:
Para Foros:
Se debe estar registrado y logueado para recomendar esta canción o escribir una dedicatoria...
Musica y Amigos.com, el mejor sitio para encontrar y compartir letras de canciones, con sus correspondientes acordes para guitarra y piano. Registrate en nuestro foro y enterate cómo agregar tus propias transcripciones. No te olvides de votar para calificar la calidad de las letras
Palabras utilizadas para encontrar esta página:
Khafra, DAMA DE LA MENTIRA, letra de DAMA DE LA MENTIRA de Khafra, letras, letra, acordes, canciones, letras de cancion, lyrics, cancion, grupo, banda, cantante, tablatura, partitura, tocar con guitarra, tocar con piano, tocar con bajo, armónica, teclado, bajo, ejecutar, estudiar música
Ver más canciones de : Khafra
No hay Comentarios :(
Registrate para Agregar Comentarios...