No estás identificado como Usuario de Mya, Si no estás registrado podes hacerlo acá: Registrarse

Usuarios activos:
Bernardo(cerca de 5 horas) |ingridsolh(cerca de 13 horas) |domenico1560(cerca de 21 horas) |Chando_4(cerca de 2 días) |rafamam(cerca de 3 días) |

Identificacion de Usuario

Olvidé mi clave
Viendo 1 - 9 de un total de 5000
1 2 3 4 5 »
Actualizar
cuisesargentinos AlfredoMarioFigueras 15/09/2014 - 17:33
Podria ser posible, la cancion Mujeres divinas sacarla en Re menor? Bernardo 05/09/2014 - 13:35
los iracundos perico 02/08/2014 - 13:42
tangos halconxxx 25/07/2014 - 22:17
TUTORIAL DE ACORDEON Cristo 15/05/2014 - 10:08
lucio dalla Cristo 07/05/2014 - 13:47
mano a mano wawer 06/05/2014 - 19:22
hola a todos ...despues de algun tiempo aqui otra vez domenico1560 29/04/2014 - 12:25
Oblivion Jorgesito 11/04/2014 - 09:18

Respirando en el mundo | La buena versión con acordes para guitarra

Buscá Otra canción en MyA!!!
(408) julian :: comentarios: 0 :: calificación: 5.00 :: visitas: 154 agregar a favoritos
Registrarse para votar. 1 puntos2 puntos3 puntos4 puntos5 puntos6 puntos7 puntos8 puntos9 puntos10 puntos | Puntaje actual: 6.00
una_columnados_columnasreducir_letraaumentar_letravista_scrollver impresion con acordesver impresion sin acordes
----------------------------------------------------------------------------------------------
Sin información gráfica sobre los acordes. Dejá tu comentario para que la actualicemos!!!.
----------------------------------------------------------------------------------------------




FORMACION DE ACORDES

A     (x02220)
A/D#  (x02240)
Asus2 (x02200)
B     (x24442)
B?    (x24342)
B7    (x24242)
Bm7?  (x24222)
B*    (x23222)
B+    (x22222)
C#    (x46664)
C#m7? (x46444)
D#m   (x68876)
E     (022100)
E(VI) (x68886)
Em    (022000)

------------------------------------------------------------
------------------------------------------------------------

NOTACION

s= slide

------------------------------------------------------------
------------------------------------------------------------

AFINACION

Normal (standar)

------------------------------------------------------------
------------------------------------------------------------


-----
VERSO (Llévame a casa hoy, allí descansaré,...)
-----


---------------------------------------------
-----4--------4----------7--------7----------
--------4--------4----------8--------8-------
--4--------4--------4s8--------8--------8s6--
---------------------------------------------
---------------------------------------------

-------------------------------------------------
-----4--------4-------------4--------4--------4--
--------4--------4-------------3--------3--------
--6--------6--------6s4--4--------4--------4-----
-------------------------------------------------
-------------------------------------------------

---------------------------------------------
-----4--------4----------7--------7----------
--------4--------4----------8--------8-------
--4--------4--------4s8--------8--------8s6--
---------------------------------------------
---------------------------------------------

--------------------------
-----6--------6--------6--
--------6--------6-------- (x2)
--6--------6--------6-----
--------------------------
--------------------------


------
CHORUS
------


1) (No, no me hace falta más...)


---------------------------------------------
-----4--------4----------8--------8----------
--------4--------4----------8--------8-------
--4--------4--------4s8--------8--------8s4--
---------------------------------------------
---------------------------------------------

--------------------------------------------------
-----4--------4--------4-----2--------2--------2--
--------3--------3--------------2--------2--------
--4--------4--------4-----4--------4--------4-----
--------------------------------------------------
--------------------------------------------------

--------------------------
-----0--------0--------0--
--------1--------1-------- (x2)
--2--------2--------2-----
--------------------------
--------------------------

-------------------------
-----0--------0----------
--------0--------0-------
--2--------2--------2s8--
-------------------------
-------------------------

-------------------------------------------------
-----7--------7--------7-----7--------7----------
--------8--------8--------------8--------8-------
--8--------8--------8-----8--------8--------8s4--
-------------------------------------------------
-------------------------------------------------


2) (x2)


--------------------------------------------------
-----2--------2--------2-----2--------2--------2--
--------2--------2--------------2--------2--------
--4--------4--------4-----3--------3--------3-----
--------------------------------------------------
--------------------------------------------------

--------------------------------------
-----2--------2--------2--4--0--4--2--
--------2--------2--------2--2--2--2--
--2--------2--------2-----4--2--2--2--
--------------------------------------
--------------------------------------


-----
FINAL (Sopa y agua de beber,...)
-----


Tocar lo mismo que en Verso, con ligeras variaciones


------------------------------------------------------------
------------------------------------------------------------


----------------------
RESPIRANDO EN EL MUNDO
----------------------


-----
INTRO
-----


B  D#m  C#m7  B?


-----
VERSO
-----


B              D#m   C#m7?       B?
Llévame a casa hoy, allí descansaré

B       D#m       C#
y recibiré tus cuidados

B                  Dm#
sin temor me acostarás

   C#m7?         B?  B            D#m        C#
preguntarás si estoy bien o si me hace falta algo


------
CHORUS
------


B   E(VI)            B?
No, no me hace falta más,

  Bm7?         E
estar siempre así

    Em         D#m
rodeada en tus brazos


Bm7?  B*  B+  B7  Asus2  A/D#  A  (x2)


-----
FINAL
-----


B                D#m
Sopa y agua de beber

C#m7?         B?   B        D#m         C#
siempre me gustó estar respirando en el mundo

    B               D#m  C#m7?            B?  B
con lágrimas en los ojos no podrás disimular


------------------------------------------------------------
------------------------------------------------------------





Esta es una transcripcion personal de un usuario de www.musicayamigos.com - El material contenido en esta pagina es para exclusivo uso privado, quedando prohibida su reproduccion o retransmision, asi como su uso con fines comerciales.
Compartí con tus amigos esta canción en tu Facebook
Poné el link en tu página o en foros!!!!
Para MySpace:
Para Foros:
Se debe estar registrado y logueado para recomendar esta canción o escribir una dedicatoria...
Musica y Amigos.com, el mejor sitio para encontrar y compartir letras de canciones, con sus correspondientes acordes para guitarra y piano. Registrate en nuestro foro y enterate cómo agregar tus propias transcripciones. No te olvides de votar para calificar la calidad de las letras
Palabras utilizadas para encontrar esta página:
La buena, Respirando en el mundo, letra de Respirando en el mundo de La buena, letras, letra, acordes, canciones, letras de cancion, lyrics, cancion, grupo, banda, cantante, tablatura, partitura, tocar con guitarra, tocar con piano, tocar con bajo, armónica, teclado, bajo, ejecutar, estudiar música
Ver más canciones de : La buena
No hay Comentarios :(
Registrate para Agregar Comentarios...