No estás identificado como Usuario de Mya, Si no estás registrado podes hacerlo acá: Registrarse

Usuarios activos:
tangos(cerca de 2 horas) |domenico1560(cerca de 22 horas) |markesonsurbe(1 día) |revistalugones(1 día) |Galileo(1 día) |

Identificacion de Usuario

Olvidé mi clave
Viendo 1 - 9 de un total de 5000
1 2 3 4 5 »
Actualizar
organizacionsomos@hotmail.com Osvaldo 16/11/2014 - 19:26
PARA VIVIR gningenieria 15/11/2014 - 23:02
GNINGENIERIA gningenieria 15/11/2014 - 23:02
FLOR DE FANGO Angeleusebio 05/11/2014 - 10:02
Todo marca error, mejora la pagina porque no tiene gracia! TonyRain 08/10/2014 - 19:02
cuisesargentinos AlfredoMarioFigueras 15/09/2014 - 17:33
Podria ser posible, la cancion Mujeres divinas sacarla en Re menor? Bernardo 05/09/2014 - 13:35
los iracundos perico 02/08/2014 - 13:42
tangos halconxxx 25/07/2014 - 22:17

Caruso | La buena versión con acordes para guitarra

Buscá Otra canción en MyA!!!
(418) julian :: comentarios: 0 :: calificación: 5.00 :: visitas: 177 agregar a favoritos
Registrarse para votar. 1 puntos2 puntos3 puntos4 puntos5 puntos6 puntos7 puntos8 puntos9 puntos10 puntos | Puntaje actual: 6.00
una_columnados_columnasreducir_letraaumentar_letravista_scrollver impresion con acordesver impresion sin acordes
----------------------------------------------------------------------------------------------
Sin información gráfica sobre los acordes. Dejá tu comentario para que la actualicemos!!!.
----------------------------------------------------------------------------------------------




FORMACION DE ACORDES

A     (x02220)
B7    (x24242)
Bsus4 (x44200)
C     (x32010)
Cm7   (x35343)
C#m   (x46654)
D     (xx0232)
Dm    (xx0231)
E?    (02244x)
Em    (022000)
F     (133211)
F#m   (244222)

------------------------------------------------------------
------------------------------------------------------------

AFINACION

Normal (standar)

------------------------------------------------------------
------------------------------------------------------------


-----
INTRO
-----


E?


-------
VERSO 1
-------


E?                 Em
Me las arreglo muy bien sin ti

D                    Dm
salvo al llegar a la casa es enorme

     C#m     F#m  Bsus4  B7
y le falta sabor


E?                       Em
No te echo en falta en nada ya ves

D                Dm
salvo en verte soplando mi cara

    C#m    F#m  Bsus4  B7
y reír los dos


--------
CHORUS 1
--------


F     C   Cm7                  D
Es verdad nada es lo mismo sin ti


E?  D  E?  B7  (x2)


-------
VERSO 2
-------


E?                 Em
Me las arreglo muy bien sin ti

D                Dm
salvo en abril y aquí todos los días

C#m     F#m  Bsus4  B7
son de abril


--------
CHORUS 2
--------


F     C   Cm7                  D
Es verdad nada es lo mismo sin ti

        F#m           A
donde estás, vuelve a mí


D           F#m     A            Cm7              D
Hay que empezar a vivir una vida de verdad, de verdad

Cm7        D
Nada, nada más


-----
FINAL
-----


1) (x2)


--------------------------
-----3--------3--------3--
--------0--------0-------- (x2)
--3--------3--------3-----
--------------------------
--------------------------

--------------------------
-----1--------1--------1--
--------0--------0-------- (x2)
--2--------2--------2-----
--------------------------
--------------------------


2)


--------------------------------------------------
-----2--------2--------2-----2--------2--------2--
--------3--------3--------------3--------3--------
--4--------4--------4-----2--------2--------2-----
--------------------------------------------------
--------------------------------------------------

-----------------------------
-----4--------4--------4-----
--------4--------4--------2--
--1--------1--------1-----4--
--------------------------4--
--------------------------2--


------------------------------------------------------------
------------------------------------------------------------





Esta es una transcripcion personal de un usuario de www.musicayamigos.com - El material contenido en esta pagina es para exclusivo uso privado, quedando prohibida su reproduccion o retransmision, asi como su uso con fines comerciales.
Compartí con tus amigos esta canción en tu Facebook
Poné el link en tu página o en foros!!!!
Para MySpace:
Para Foros:
Se debe estar registrado y logueado para recomendar esta canción o escribir una dedicatoria...
Musica y Amigos.com, el mejor sitio para encontrar y compartir letras de canciones, con sus correspondientes acordes para guitarra y piano. Registrate en nuestro foro y enterate cómo agregar tus propias transcripciones. No te olvides de votar para calificar la calidad de las letras
Palabras utilizadas para encontrar esta página:
La buena, Caruso, letra de Caruso de La buena, letras, letra, acordes, canciones, letras de cancion, lyrics, cancion, grupo, banda, cantante, tablatura, partitura, tocar con guitarra, tocar con piano, tocar con bajo, armónica, teclado, bajo, ejecutar, estudiar música
Ver más canciones de : La buena
No hay Comentarios :(
Registrate para Agregar Comentarios...