No estás identificado como Usuario de Mya, Si no estás registrado podes hacerlo acá: Registrarse

No estás logueado con tu Facebook, ingresá

Usuarios activos:
bochin(cerca de 8 horas) |danisolo(cerca de 21 horas) |wawer(1 día) |matiasfornogeo(cerca de 3 días) |Osvaldo(cerca de 3 días) |

Identificacion de Usuario

Olvidé mi clave
Viendo 1 - 9 de un total de 5000
1 2 3 4 5 »
Actualizar
Oblivion Jorgesito 11/04/2014 - 09:18
problemas para loguearme, solo pude entrar con firefox, no se si es mi compu o a todos les pasa, desde ayer javi29 07/04/2014 - 20:53
ojos de cielo Maxiii10 05/04/2014 - 10:29
lucia suarec330 27/03/2014 - 17:11
Letras de Canciones Augus_2013 24/02/2014 - 14:31
que tiempos aquellos cuando yó le pedía una música a javi y me las sacaba al toque ... por donde andarás ? viejo amigo tangos 19/02/2014 - 16:43
por donde andará javi que nó me saca las canciones que le pedí ... ( tangos ) tangos 17/02/2014 - 11:44
mecano hijo de la luna mikikar 27/01/2014 - 13:27
ola juangviz 23/01/2014 - 14:15

A mitad de camino | La buena versión con acordes para guitarra

Buscá Otra canción en MyA!!!
(397) julian :: comentarios: 0 :: calificación: 5.00 :: visitas: 168 agregar a favoritos
Registrarse para votar. 1 puntos2 puntos3 puntos4 puntos5 puntos6 puntos7 puntos8 puntos9 puntos10 puntos | Puntaje actual: 6.00
una_columnados_columnasreducir_letraaumentar_letravista_scrollver impresion con acordesver impresion sin acordes
----------------------------------------------------------------------------------------------
Sin información gráfica sobre los acordes. Dejá tu comentario para que la actualicemos!!!.
----------------------------------------------------------------------------------------------




FORMACION DE ACORDES

Am    (x02210)
Am(V) (577555)
Bsus4 (x44200)
C     (x32010)
Dm    (xx0231)
E?    (021000)
F     (133211)
Fmaj7 (x33210)
G     (320003)
G7    (320001)
Gsus  (320000)

------------------------------------------------------------
------------------------------------------------------------

NOTACION

h= hammer on
p= pull off
>= rasguear ese acorde una sóla vez y mantener el sonido

------------------------------------------------------------
------------------------------------------------------------

AFINACION

Normal (standar)

------------------------------------------------------------
------------------------------------------------------------


-----
INTRO
-----


--|----------------0--------|--------------0----------|--
--|-----------0h1-----1-----|--0--0-----------0-------|--
--|--------2-------------2--|--------0----------------|--
--|-----2-------------------|--1--------1--------1p0--|--
--|--0----------------------|-------------------------|--
--|-------------------------|-------------------------|--

--|--------------0-----------|--------------0--|--------|--
--|-----------------0--------|-----------0-----|--1-----|--
--|-----0--------------0-----|--2--2-----------|--2--0--|--
--|--------2--------------0--|-----------------|--3--0--|--
--|--3--------3--------------|--4-----4--------|--3--2--|--
--|--3-----------------------|-----------------|-----3--|--

--|--------------------------------------------|--
--|--0-----------------------0-----------------|--
--|-----0--------------0--------0-----0--------|--
--|--------0--------2--------------------2-----|--
--|-----------3-----------3--------3--------3--|--
--|--------------3-----------------------------|--


-----
VERSO (Vivir la vida tranquila, con ganas...) (x4)
-----


--|--------------0--------|--------------0----------|--
--|-----------1-----1-----|--0--0-----------0-------|--
--|--------2-----------2--|--------0----------------|--
--|-----2-----------------|--1--------1--------1p0--|--
--|--0--------------------|-------------------------|--
--|-----------------------|-------------------------|--

--|--------0-----------------0--|-------------------------|-
--|-----------1-----------0-----|--1--1----------0--------|-
--|-----0--------0-----2--------|--2-----2----------0-----|-
--|-----------------------------|--3--------3----------0--|-
--|--3--------------4-----------|--3----------------------|-
--|--3--------------------------|--------------3----------|-

--|--------------------0-------------------|--
--|-----------0-----------0-----0----------|--
--|-----0--------0-----------0-----0-------|--
--|--------2--------2-----------------2p0--|--
--|--3-------------------------------------|--
--|----------------------------------------|--

Esta es básicamente la progresión de arpegios que se toca a
lo largo del verso de la canción, pero pueden darse ligeras
variaciones


------
CHORUS (x2)
------

  C>
-----0--------0--------0--
--------1--------1--------
--0--------0--------0-----
--------------------------
--------------------------
--------------------------

  G7>
-----1--------1--------0--
--------0--------0--------
--0--------0--------0-----
--------------------------
--------------------------
--------------------------

  Am>
-----0--------0--------0--
--------1--------1--------
--------------------------
--2--------2--------2-----
--------------------------
--------------------------

  Dm>
-----1--------1--------0--
--------3--------3--------
--------------------------
--0--------0--------0-----
--------------------------
--------------------------

  F>
-----1--------1--------1--
--------1--------1--------
-------------------------- (x2)
--3--------3--------3-----
--------------------------
--------------------------

  C>
-----0--------0--------0--
--------1--------1--------
--------------------------
--2--------2--------2-----
--------------------------
--------------------------

  G>
-----0--------1--------0--
--------0--------3--------
--------------------------
--0--------0--------0-----
--------------------------
--------------------------


-----
FINAL (Uhhhh, uhhh,...)
-----


--------------0-----------
-----1-----------1-----0--
--------2-----------2-----
-----------2--------------
--0-----------------------
--------------------------

--------------0-----------
-----0-----------0-----0--
--------0-----------0----- (x2)
--2--------2--------------
--------------------------
--------------------------

--------------0-----------
-----2-----------2-----0--
--------2-----------2-----
--------------------------
--4--------4--------------
--------------------------

--------------------5--
--1-----------------5--
--2-----------------5--
--3--3--2-----------7--
--3--------3--2-----7--
-----------------3--5--

Rasguear el último acorde de abajo a arriba suavemente


------------------------------------------------------------
------------------------------------------------------------


------------------
A MITAD DEL CAMINO
------------------


-----
INTRO
-----


Am  E?  C  Bsus4  Fmaj7  G  C


-------
VERSO 1
-------


Am                E?     C                Bsus4
Vivir la vida tranquila, con ganas y sin amor

Fmaj7 G         C  Am                 E?
es el método ideal para durar muchos años

C                Bsus4  Fmaj7  G  C
y conservar juventud


Am         E?    C       Bsus4
Presta atención, escucha bien

Fmaj7 G         C
es   una declaración

Am      E?   C     Bsus4  Fmaj7  G  C
No digo más, abrázame


C  G7  Am  Dm  F  C  G  (x2)


-------
VERSO 2
-------


Am                  E?
Y si me esperas un año

C                   Bsus4
y me demuestras tu amor

Fmaj7 G         C
ya    no te dejaré


Am             E?
Sólo te pido paciencia

C                   Bsus4  Fmaj7  G  C
y un poco de comprensión


C  G7  Am  Dm  F  C  G  (x2)


-----
FINAL
-----


Am  Em  Gsus  Bsus4  Fmaj7  Am(V)


------------------------------------------------------------
------------------------------------------------------------





Esta es una transcripcion personal de un usuario de www.musicayamigos.com - El material contenido en esta pagina es para exclusivo uso privado, quedando prohibida su reproduccion o retransmision, asi como su uso con fines comerciales.
Compartí con tus amigos esta canción en tu Facebook
Poné el link en tu página o en foros!!!!
Para MySpace:
Para Foros:
Se debe estar registrado y logueado para recomendar esta canción o escribir una dedicatoria...
Musica y Amigos.com, el mejor sitio para encontrar y compartir letras de canciones, con sus correspondientes acordes para guitarra y piano. Registrate en nuestro foro y enterate cómo agregar tus propias transcripciones. No te olvides de votar para calificar la calidad de las letras
Palabras utilizadas para encontrar esta página:
La buena, A mitad de camino, letra de A mitad de camino de La buena, letras, letra, acordes, canciones, letras de cancion, lyrics, cancion, grupo, banda, cantante, tablatura, partitura, tocar con guitarra, tocar con piano, tocar con bajo, armónica, teclado, bajo, ejecutar, estudiar música
Ver más canciones de : La buena
No hay Comentarios :(
Registrate para Agregar Comentarios...