No estás identificado como Usuario de Mya, Si no estás registrado podes hacerlo acá: Registrarse

No estás logueado con tu Facebook, ingresá

Usuarios activos:
domenico1560(cerca de 13 horas) |manne(1 día) |javi29(1 día) |bochamdq(1 día) |suarec330(cerca de 4 días) |

Identificacion de Usuario

Olvidé mi clave
Viendo 1 - 9 de un total de 5000
1 2 3 4 5 »
Actualizar
TUTORIAL DE ACORDEON Cristo 15/05/2014 - 10:08
lucio dalla Cristo 07/05/2014 - 13:47
mano a mano wawer 06/05/2014 - 19:22
hola a todos ...despues de algun tiempo aqui otra vez domenico1560 29/04/2014 - 12:25
Oblivion Jorgesito 11/04/2014 - 09:18
problemas para loguearme, solo pude entrar con firefox, no se si es mi compu o a todos les pasa, desde ayer javi29 07/04/2014 - 20:53
ojos de cielo Maxiii10 05/04/2014 - 10:29
lucia suarec330 27/03/2014 - 17:11
Letras de Canciones Augus_2013 24/02/2014 - 14:31

80 cosas | La buena versión con acordes para guitarra

Buscá Otra canción en MyA!!!
(397) julian :: comentarios: 0 :: calificación: 5.00 :: visitas: 167 agregar a favoritos
Registrarse para votar. 1 puntos2 puntos3 puntos4 puntos5 puntos6 puntos7 puntos8 puntos9 puntos10 puntos | Puntaje actual: 6.00
una_columnados_columnasreducir_letraaumentar_letravista_scrollver impresion con acordesver impresion sin acordes
----------------------------------------------------------------------------------------------
Sin información gráfica sobre los acordes. Dejá tu comentario para que la actualicemos!!!.
----------------------------------------------------------------------------------------------




FORMACION DE ACORDES

A/F#  (202200)
Am    (x02210)
Am/C# (x32210)
Em    (022000)
Fsus  (133200)
Gsus  (320000)

------------------------------------------------------------

NOTACION

p= pull off

------------------------------------------------------------

AFINACION

Normal (standar

------------------------------------------------------------

------------------------
PROGRESIONES DE ARPEGIOS
------------------------

------------
PROGRESION 1
------------

  Am
--------------------------
--------------1-----------
-----2-----------2-----2--
--------2-----------2-----
--0--------0--------------
--------------------------

  A/F#
----------------------
-----------0----------
-----2--------2-------
--------2--------2p0--
----------------------
--2-------------------

  Fsus
--------------------------
--------------0-----------
-----2-----------2-----2--
--------3-----------3-----
--3--------3--------------
--1-----------------------

  Em
----------------------
-----------0----------
-----0--------0-------
--------2--------2p0--
--2-------------------
--0-------------------


------------
PROGRESION 2
------------

  Am
--------------------------
--------------1-----------
-----2-----------2-----2--
--------2-----------2-----
--0--------0--------------
--------------------------

  A/F#
--------------------------
--------------0-----------
-----2-----------2--------
--------2--------------0--
-----------0--------0-----
--2-----------------------

  Fsus
--------------------------
--------------0-----------
-----------------2-----2--
--------3-----------3-----
-----3-----3--------------
--1-----------------------

  Em
--------------------------
--------------0-----------
-----------------0-----0--
-----2--------------2-----
--------2-----------------
--0--------0--------------

------------------------------------------------------------
------------------------------------------------------------

N.d.A: N.d.A: en esta cancion hay dos guitarras.

Una de las guitarras rasguea los acordes.

La otra guitarra toca arpegios partiendo de esos mismos
acordes. Las progresiones de arpegios de cada parte de la
canción son los que indico arriba. Cuando veáis una progre-
sión entre paréntesis junto a un signo de multiplicar y un
número [Progresion 1 (x2)] indico las veces que tenéis que
tocar esa progresión en esa parte de la canción.


------------------------------------------------------------
------------------------------------------------------------

-----
INTRO
-----


[Progresion 1 (x2)]


-------
VERSO 1 [Progresión 2 (x2)]
-------


Am             A/F#
Creo que hoy empezaré

Fsus     Em
80 cosas a la vez;

Am              A/F#
algo tendré que inventar

Fsus           Em
para tratar de reaccionar


--------
CHORUS 1
--------


Am    Am/C#      Fsus             Gsus
No sé cómo haré, lo tengo que estudiar,

Am     A/F#      Fsus       Gsus
ya no, nunca más me abandonará


Am  A/F#  Fsus  Em (x2) + [Progresion 1 (x2)]


-------
VERSO 2 [Progresión 2 (x2)]
-------


Am             A/F#
Lo intento por cuarta vez,

Fsus          Em
no me consigo defender,

Am           A/F#
y lo que era bueno ayer

Fsus              Em
hoy me parece que no lo es


--------
CHORUS 2
--------


Am       Am/C#     Fsus          Gsus
Ya está, ya lo sé, me dejaré engañar,

Am     A/F#         Fsus        Gsus
tendré que aprender a vivir con él

Am     Am/C#  Fsus   Gsus
Na na, na na, na na

Am     Am/C#  Fsus   Gsus
Na na, na na, na na


Am  Am/C#  Fsus  Gsus (x2)


-----
FINAL
-----


Am             A/F#
Creo que hoy empezaré

Fsus
80 cosas a la vez


------------------------------------------------------------
------------------------------------------------------------





Esta es una transcripcion personal de un usuario de www.musicayamigos.com - El material contenido en esta pagina es para exclusivo uso privado, quedando prohibida su reproduccion o retransmision, asi como su uso con fines comerciales.
Compartí con tus amigos esta canción en tu Facebook
Poné el link en tu página o en foros!!!!
Para MySpace:
Para Foros:
Se debe estar registrado y logueado para recomendar esta canción o escribir una dedicatoria...
Musica y Amigos.com, el mejor sitio para encontrar y compartir letras de canciones, con sus correspondientes acordes para guitarra y piano. Registrate en nuestro foro y enterate cómo agregar tus propias transcripciones. No te olvides de votar para calificar la calidad de las letras
Palabras utilizadas para encontrar esta página:
La buena, 80 cosas, letra de 80 cosas de La buena, letras, letra, acordes, canciones, letras de cancion, lyrics, cancion, grupo, banda, cantante, tablatura, partitura, tocar con guitarra, tocar con piano, tocar con bajo, armónica, teclado, bajo, ejecutar, estudiar música
Ver más canciones de : La buena
No hay Comentarios :(
Registrate para Agregar Comentarios...