No estás identificado como Usuario de Mya, Si no estás registrado podes hacerlo acá: Registrarse

Usuarios activos:
raspael(cerca de 14 horas) |patricio022(1 día) |domenico1560(1 día) |Sebas(cerca de 2 días) |javi29(cerca de 2 días) |

Identificacion de Usuario

Olvidé mi clave
Viendo 1 - 9 de un total de 5000
1 2 3 4 5 »
Actualizar
cuisesargentinos AlfredoMarioFigueras 15/09/2014 - 17:33
Podria ser posible, la cancion Mujeres divinas sacarla en Re menor? Bernardo 05/09/2014 - 13:35
los iracundos perico 02/08/2014 - 13:42
tangos halconxxx 25/07/2014 - 22:17
TUTORIAL DE ACORDEON Cristo 15/05/2014 - 10:08
lucio dalla Cristo 07/05/2014 - 13:47
mano a mano wawer 06/05/2014 - 19:22
hola a todos ...despues de algun tiempo aqui otra vez domenico1560 29/04/2014 - 12:25
Oblivion Jorgesito 11/04/2014 - 09:18

NALGAS | La buena versión con acordes para guitarra

Buscá Otra canción en MyA!!!
(408) julian :: comentarios: 0 :: calificación: 5.00 :: visitas: 484 agregar a favoritos
Registrarse para votar. 1 puntos2 puntos3 puntos4 puntos5 puntos6 puntos7 puntos8 puntos9 puntos10 puntos | Puntaje actual: 6.00
una_columnados_columnasreducir_letraaumentar_letravista_scrollver impresion con acordesver impresion sin acordes
----------------------------------------------------------------------------------------------
Sin información gráfica sobre los acordes. Dejá tu comentario para que la actualicemos!!!.
----------------------------------------------------------------------------------------------



Aquí va el intro de esta genial canción de Buena Fe.Sólo tienen que
tomarle bien el ritmo y tocar bien los ligados. Espero la disfruten.


e--------5-5-7ps9-7-10-9-7-5-----------5-5-7ps9-7-12-10-9-7-5---
B-5ps7-7--7------------------7--5ps7-7--7---------------------7-
G---------------------------------------------------------------
D---------------------------------------------------------------
A---------------------------------------------------------------
E---------------------------------------------------------------

e--------5--5-7ps9-7-10-9-7-5---5-------------5-5-7ps9-7-10-12-10-
B-5ps7-7---7------------------7---5-5---5ps7-7-7---------12-12-12-
G----------------------------------------------------------------
D----------------------------------------------------------------
A----------------------------------------------------------------
E----------------------------------------------------------------

e--9-10--9-------------------------------------------------------
B-10-10-10-------------------------------------------------------
G----------------------------------------------------------------
D----------------------------------------------------------------
A----------------------------------------------------------------
E----------------------------------------------------------------





Esta es una transcripcion personal de un usuario de www.musicayamigos.com - El material contenido en esta pagina es para exclusivo uso privado, quedando prohibida su reproduccion o retransmision, asi como su uso con fines comerciales.
Compartí con tus amigos esta canción en tu Facebook
Poné el link en tu página o en foros!!!!
Para MySpace:
Para Foros:
Se debe estar registrado y logueado para recomendar esta canción o escribir una dedicatoria...
Musica y Amigos.com, el mejor sitio para encontrar y compartir letras de canciones, con sus correspondientes acordes para guitarra y piano. Registrate en nuestro foro y enterate cómo agregar tus propias transcripciones. No te olvides de votar para calificar la calidad de las letras
Palabras utilizadas para encontrar esta página:
La buena, NALGAS, letra de NALGAS de La buena, letras, letra, acordes, canciones, letras de cancion, lyrics, cancion, grupo, banda, cantante, tablatura, partitura, tocar con guitarra, tocar con piano, tocar con bajo, armónica, teclado, bajo, ejecutar, estudiar música
Ver más canciones de : La buena
No hay Comentarios :(
Registrate para Agregar Comentarios...