No estás identificado como Usuario de Mya, Si no estás registrado podes hacerlo acá: Registrarse

Usuarios activos:
javi29(cerca de 13 horas) |kenshin(cerca de 20 horas) |amador(cerca de 20 horas) |nnferka(cerca de 23 horas) |domenico1560(1 día) |

Identificacion de Usuario

Olvidé mi clave
Viendo 1 - 9 de un total de 5000
1 2 3 4 5 »
Actualizar
organizacionsomos@hotmail.com Osvaldo 16/11/2014 - 19:26
PARA VIVIR gningenieria 15/11/2014 - 23:02
GNINGENIERIA gningenieria 15/11/2014 - 23:02
FLOR DE FANGO Angeleusebio 05/11/2014 - 10:02
Todo marca error, mejora la pagina porque no tiene gracia! TonyRain 08/10/2014 - 19:02
cuisesargentinos AlfredoMarioFigueras 15/09/2014 - 17:33
Podria ser posible, la cancion Mujeres divinas sacarla en Re menor? Bernardo 05/09/2014 - 13:35
los iracundos perico 02/08/2014 - 13:42
tangos halconxxx 25/07/2014 - 22:17

No Queda Mas | Al-Jadaqui versión con acordes para guitarra

Buscá Otra canción en MyA!!!
(418) julian :: comentarios: 0 :: calificación: 5.00 :: visitas: 181 agregar a favoritos
Registrarse para votar. 1 puntos2 puntos3 puntos4 puntos5 puntos6 puntos7 puntos8 puntos9 puntos10 puntos | Puntaje actual: 6.00
una_columnados_columnasreducir_letraaumentar_letravista_scrollver impresion con acordesver impresion sin acordes
----------------------------------------------------------------------------------------------
Sin información gráfica sobre los acordes. Dejá tu comentario para que la actualicemos!!!.
----------------------------------------------------------------------------------------------




E|-------0--------------0---------------0-------------0------|
B|-----0---0----------0---0-----------0---0---------0---0----|
G|---6-------6------6-------6-------8-------8-----8-------8--| 6 Veces
D|-----------------------------------------------------------|
A|-4---------------------------------------------------------|
E|-------------0--5-----------5/7-7-----------7-7------------|


E|-------0--------------0------------0-0-0-0-0-0-0-0-0-0-0-0-0-0-0-|
B|-----0---0----------0---0----------0-0-0-0-0-0-0-0-0-0-0-0-0-0-0-|
G|---6-------6------6-------6--------8-8-8-8-8-8-8-8-8-8-8-8-8-8-8-|
D|-----------------------------------9-9-9-9-9-9-9-9-9-9-9-9-9-9-9-|
A|-4---------------------------------9-9-9-9-9-9-9-9-9-9-9-9-9-9-9-|
E|-------------0--5-----------5/7-7--7-7-7-7-7-7-7-7-7-7-7-7-7-7-7-|

(2 Veces)
E|-0-0-0-0-0-0-0-0-|-0-0-0-0-0-0-0-0-|-0-0-0-0-0-0-0-0-0-0-0-0-0-0-0-0-|
B|-0-0-0-0-0-0-0-0-|-0-0-0-0-0-0-0-0-|-0-0-0-0-0-0-0-0-0-0-0-0-0-0-0-0-|
G|-6-6-6-6-6-6-6-6-|-6-6-6-6-6-6-6-6-|-8-8-8-8-8-8-8-8-8-8-8-8-8-8-8-8-|
D|-6-6-6-6-6-6-6-6-|-7-7-7-7-7-7-7-7-|-9-9-9-9-9-9-9-9-9-9-9-9-9-9-9-9-|
A|-4-4-4-4-4-4-4-4-|-7-7-7-7-7-7-7-7-|-9-9-9-9-9-9-9-9-9-9-9-9-9-9-9-9-|
E|-0-0-0-0-0-0-0-0-|-5-5-5-5-5-5-5-5-|-7-7-7-7-7-7-7-7-7-7-7-7-7-7-7-7-|


E|-------0--------------0---------------0-------------0------|
B|-----0---0----------0---0-----------0---0---------0---0----|
G|---6-------6------6-------6-------8-------8-----8-------8--| 4 Veces
D|-----------------------------------------------------------|
A|-4---------------------------------------------------------|
E|-------------0--5-----------5/7-7-----------7-7------------|


E|-------0--------------0-------------0-0-0-0-0-0-0-0-0-0-0-0-0-0-0-|
B|-----0---0----------0---0-----------0-0-0-0-0-0-0-0-0-0-0-0-0-0-0-|
G|---6-------6------6-------6---------8-8-8-8-8-8-8-8-8-8-8-8-8-8-8-|
D|------------------------------------9-9-9-9-9-9-9-9-9-9-9-9-9-9-9-|
A|-4----------------------------------9-9-9-9-9-9-9-9-9-9-9-9-9-9-9-|
E|-------------0--5-----------5/7-7---7-7-7-7-7-7-7-7-7-7-7-7-7-7-7-|


(8 ó 10 Veces)
E|-0-0-0-0-0-0-0-0-|-0-0-0-0-0-0-0-0-|-0-0-0-0-0-0-0-0-0-0-0-0-0-0-0-0-|
B|-0-0-0-0-0-0-0-0-|-0-0-0-0-0-0-0-0-|-0-0-0-0-0-0-0-0-0-0-0-0-0-0-0-0-|
G|-6-6-6-6-6-6-6-6-|-6-6-6-6-6-6-6-6-|-8-8-8-8-8-8-8-8-8-8-8-8-8-8-8-8-|
D|-6-6-6-6-6-6-6-6-|-7-7-7-7-7-7-7-7-|-9-9-9-9-9-9-9-9-9-9-9-9-9-9-9-9-|
A|-4-4-4-4-4-4-4-4-|-7-7-7-7-7-7-7-7-|-9-9-9-9-9-9-9-9-9-9-9-9-9-9-9-9-|
E|-0-0-0-0-0-0-0-0-|-5-5-5-5-5-5-5-5-|-7-7-7-7-7-7-7-7-7-7-7-7-7-7-7-7-|



Bueno, aquí esta la canción del grupo de rock Dominicano,
le faltan los solos pero eso es lo de menos, escuchenla para
que les tomen el ritmo...





Esta es una transcripcion personal de un usuario de www.musicayamigos.com - El material contenido en esta pagina es para exclusivo uso privado, quedando prohibida su reproduccion o retransmision, asi como su uso con fines comerciales.
Compartí con tus amigos esta canción en tu Facebook
Poné el link en tu página o en foros!!!!
Para MySpace:
Para Foros:
Se debe estar registrado y logueado para recomendar esta canción o escribir una dedicatoria...
Musica y Amigos.com, el mejor sitio para encontrar y compartir letras de canciones, con sus correspondientes acordes para guitarra y piano. Registrate en nuestro foro y enterate cómo agregar tus propias transcripciones. No te olvides de votar para calificar la calidad de las letras
Palabras utilizadas para encontrar esta página:
Al-Jadaqui, No Queda Mas, letra de No Queda Mas de Al-Jadaqui, letras, letra, acordes, canciones, letras de cancion, lyrics, cancion, grupo, banda, cantante, tablatura, partitura, tocar con guitarra, tocar con piano, tocar con bajo, armónica, teclado, bajo, ejecutar, estudiar música
Ver más canciones de : Al-Jadaqui
No hay Comentarios :(
Registrate para Agregar Comentarios...