No estás identificado como Usuario de Mya, Si no estás registrado podes hacerlo acá: Registrarse

Usuarios activos:
cerebroscar(1 día) |eduardoeee(1 día) |Alejandro081277(1 día) |HugoRG(1 día) |titonosa(cerca de 3 días) |

Identificacion de Usuario

Olvidé mi clave
Viendo 1 - 9 de un total de 5000
1 2 3 4 5 »
Actualizar
tienen el blog de javi acordesdcanciones.com, que pueden pedir canciones ahi danyalmagro 25/06/2016 - 14:35
hagan andar la pagina!!!!!! vamos!!!!!!! Sebas 24/06/2016 - 21:48
NI LETRA NI ACORDES... guitarman 21/06/2016 - 20:13
QUE LASTIMA.... ERA UNA BUENA PAGINA guitarman 21/06/2016 - 20:12
NO SE VEN LOS ACORDES guitarman 21/06/2016 - 20:12
Sebas 15/06/2016 - 22:53
acordes cramello 12/06/2016 - 08:23
NO SE VEN LOS ACORDES Sergei 11/06/2016 - 23:35
partitura ttturbo 09/06/2016 - 06:40

Ganas de Amar | Al-Jadaqui versión con acordes para guitarra

Buscá Otra canción en MyA!!!
(474) julian :: comentarios: 0 :: calificación: 5.00 :: visitas: 1066 agregar a favoritos
Registrarse para votar. 1 puntos2 puntos3 puntos4 puntos5 puntos6 puntos7 puntos8 puntos9 puntos10 puntos | Puntaje actual: 6.00
una_columnados_columnasreducir_letraaumentar_letravista_scrollver impresion con acordesver impresion sin acordes
----------------------------------------------------------------------------------------------
Sin información gráfica sobre los acordes. Dejá tu comentario para que la actualicemos!!!.
----------------------------------------------------------------------------------------------



Este es el solo de la cancion e al-jadaqui:

e---------------------------------12-------------------
b--14---14-12---------12----12-14----14----12h14p12----
g-------------14---14----14-------------14----------11-
d------------------------------------------------------
a------------------------------------------------------
e------------------------------------------------------


e--------------14---14/12-12---12/14-15/19-19--19-17-15
b--------12-14-----------------------------------------
g--11-14-----------------------------------------------
d------------------------------------------------------
a------------------------------------------------------
e------------------------------------------------------


e----------------------------------------------------------
b--14-14-12----12----------------14--12--------------12----
g-----------14----14-11--14-14----------14-11--11-14-------
d-------------------------------------------------------14-
a----------------------------------------------------------
e----------------------------------------------------------


e--------------------------------------------------------
b--14-14-12----12----------------------------------------
g-----------14----14-11--14-14/--------------------------
d-----------------------------------------14----------15-
a----------------------------------7-9-11-----8-10-12----
e--------------------------------------------------------





Esta es una transcripcion personal de un usuario de www.musicayamigos.com - El material contenido en esta pagina es para exclusivo uso privado, quedando prohibida su reproduccion o retransmision, asi como su uso con fines comerciales.
Compartí con tus amigos esta canción en tu Facebook
Poné el link en tu página o en foros!!!!
Para MySpace:
Para Foros:
Se debe estar registrado y logueado para recomendar esta canción o escribir una dedicatoria...
Musica y Amigos.com, el mejor sitio para encontrar y compartir letras de canciones, con sus correspondientes acordes para guitarra y piano. Registrate en nuestro foro y enterate cómo agregar tus propias transcripciones. No te olvides de votar para calificar la calidad de las letras
Palabras utilizadas para encontrar esta página:
Al-Jadaqui, Ganas de Amar, letra de Ganas de Amar de Al-Jadaqui, letras, letra, acordes, canciones, letras de cancion, lyrics, cancion, grupo, banda, cantante, tablatura, partitura, tocar con guitarra, tocar con piano, tocar con bajo, armónica, teclado, bajo, ejecutar, estudiar música
Ver más canciones de : Al-Jadaqui
No hay Comentarios :(
Registrate para Agregar Comentarios...