No estás identificado como Usuario de Mya, Si no estás registrado podes hacerlo acá: Registrarse

Usuarios activos:
DANI(cerca de 3 horas) |Johnny(cerca de 12 horas) |tativ(cerca de 13 horas) |Juanka64(1 día) |domenico1560(1 día) |

Identificacion de Usuario

Olvidé mi clave
Viendo 1 - 9 de un total de 5000
1 2 3 4 5 »
Actualizar
Todo marca error, mejora la pagina porque no tiene gracia! TonyRain 08/10/2014 - 19:02
cuisesargentinos AlfredoMarioFigueras 15/09/2014 - 17:33
Podria ser posible, la cancion Mujeres divinas sacarla en Re menor? Bernardo 05/09/2014 - 13:35
los iracundos perico 02/08/2014 - 13:42
tangos halconxxx 25/07/2014 - 22:17
TUTORIAL DE ACORDEON Cristo 15/05/2014 - 10:08
lucio dalla Cristo 07/05/2014 - 13:47
mano a mano wawer 06/05/2014 - 19:22
hola a todos ...despues de algun tiempo aqui otra vez domenico1560 29/04/2014 - 12:25

Polvo en los ojos | Real de Catorce versión con acordes para guitarra

Buscá Otra canción en MyA!!!
(418) julian :: comentarios: 0 :: calificación: 5.00 :: visitas: 177 agregar a favoritos
Registrarse para votar. 1 puntos2 puntos3 puntos4 puntos5 puntos6 puntos7 puntos8 puntos9 puntos10 puntos | Puntaje actual: 6.00
una_columnados_columnasreducir_letraaumentar_letravista_scrollver impresion con acordesver impresion sin acordes
----------------------------------------------------------------------------------------------
Sin información gráfica sobre los acordes. Dejá tu comentario para que la actualicemos!!!.
----------------------------------------------------------------------------------------------



INTRO: (Guitarra octavada)

  D   A    Bm     A   G          A     D
e--------------10\12/10---------------15-14-12-----
B--10\12/10---------------------12-15----------15~~
G-------------------------12—14--------------------
D--------------------------------------------------
A--------------------------------------------------
E--------------------------------------------------


(1)
D     F#7-Bm             G-A
Fue el amor, o polvo en los ojos
D   F#7           Bm        G-A
Esa noche yo no hacia nada
D   F#7         Bm       G-A
Volaba hablando con las nubes blancas
D         F#7        Bm           G-A
En los linderos de una luna mas

D    F#7 –Bm     G-A
Numere, las estrellas nuevas
D   F#7-Bm      G-A
No note, que una se apagaba

(2)
D   F#7             Bm              G         A    D
Dime, que te amo la noche, que no dudaste ni dos minutos
F#7             Bm     G    A    D
Que no estaba el agua helada, que reíste para ti
        F#7     Bm             G     A       D
Que una voz siguió tu sombra, que soñaste cuando niña
      F#7        Bm       G      A        D
Que nadabas y flotabas, que llegaste a salvo al fin


PUENTE:
       D  A  Bm     A         G         A   D
e-------------------10(12)10------------10-10---12--10~--
B----- 7--10(12)10-------------7-8~--10------------------
G-7--9---------------------------------------------------
D--------------------------------------------------------
A--------------------------------------------------------
E--------------------------------------------------------


(1)
Fue vivir, a mil por hora,
O esa forma de cruzar el fuego
Dejaste cartas y nudos de nostalgia
Pienso en tu alma corriendo calle abajo

Numere, las estrellas nuevas
No note, que una se apagaba

(2)
D   F#7             Bm              G         A    D
Dime, que te amo la noche, que no dudaste ni dos minutos
F#7             Bm     G    A    D
Que no estaba el agua helada, que reíste para ti
        F#7     Bm             G     A       D
Que una voz siguió tu sombra, que soñaste cuando niña
      F#7        Bm       G      A        D
Que nadabas y flotabas, que llegaste a salvo al fin



A    D*    A          D*     A    D     A        Bm-A
Vida mia,  que dia es hoy, ando solo, mudo y triste
      G     A D
Recordando tu luz


A    D*   A          D*      A    D     A        Bm-A
Vida mia,  que dia es hoy, ando solo, mudo y triste
      G     A D
Recordando tu luz


*:
   e ---------------7-9-10~~
   B----------7-8-9---------
   G------7-9---------------
   D------------------------
   A------------------------
   E------------------------







OUT:  D  A   Bm  A   G  A  D(estos acordes se van repitiendo)


e--------------------------------------------------------10-9-7-
B---------7~---0-ˆ-7(8)7------5-7---------------\10---------10~~
G---7--9---------------------7------7----6-7--------------------
D------------------------------------------------9--------------
A---------------------------------------------------------------
E---------------------------------------------------------------



e--------------------------------------14~~~--14--14(16)14--12-12\14------
B-------------------------14-15-16-------------------------------------15-
G-----------------14-16---------------------------------------------------
D-----14-16-17------------------------------------------------------------
A-17----------------------------------------------------------------------
E-------------------------------------------------------------------------





Esta es una transcripcion personal de un usuario de www.musicayamigos.com - El material contenido en esta pagina es para exclusivo uso privado, quedando prohibida su reproduccion o retransmision, asi como su uso con fines comerciales.
Compartí con tus amigos esta canción en tu Facebook
Poné el link en tu página o en foros!!!!
Para MySpace:
Para Foros:
Se debe estar registrado y logueado para recomendar esta canción o escribir una dedicatoria...
Musica y Amigos.com, el mejor sitio para encontrar y compartir letras de canciones, con sus correspondientes acordes para guitarra y piano. Registrate en nuestro foro y enterate cómo agregar tus propias transcripciones. No te olvides de votar para calificar la calidad de las letras
Palabras utilizadas para encontrar esta página:
Real de Catorce, Polvo en los ojos, letra de Polvo en los ojos de Real de Catorce, letras, letra, acordes, canciones, letras de cancion, lyrics, cancion, grupo, banda, cantante, tablatura, partitura, tocar con guitarra, tocar con piano, tocar con bajo, armónica, teclado, bajo, ejecutar, estudiar música
Ver más canciones de : Real de Catorce
No hay Comentarios :(
Registrate para Agregar Comentarios...