No estás identificado como Usuario de Mya, Si no estás registrado podes hacerlo acá: Registrarse

Usuarios activos:
domenico1560(1 día) |pisador(cerca de 2 días) |WaldirAltieri(cerca de 3 días) |pichihuinca(cerca de 3 días) |Gilbert(cerca de 5 días) |

Identificacion de Usuario

Olvidé mi clave
Viendo 1 - 9 de un total de 5000
1 2 3 4 5 »
Actualizar
la partitura del piano del tang DESENCUENTRO WaldirAltieri 27/08/2015 - 14:40
dolina revistalugones 07/08/2015 - 20:55
gracias raul 04/08/2015 - 20:08
Poro favor como puderé tener la partitura del tango DEWENCUENTRO? WaldirAltieri 27/07/2015 - 12:48
deseo la musica em acordes del tango DESENCUENTRO WaldirAltieri 20/07/2015 - 13:02
ROBERTO POLACO GOYENECHE WaldirAltieri 20/07/2015 - 13:01
mi gusto personal: el tango desencnentro con polaco WaldirAltieri 20/07/2015 - 12:42
desencuentro WaldirAltieri 15/07/2015 - 10:27
Hola estoy buscando el cifrado para Guitarra del tango "Como se muere de amor" ciclondemetal 12/07/2015 - 12:58

Azul | Real de Catorce versión con acordes para guitarra

Buscá Otra canción en MyA!!!
(444) julian :: comentarios: 0 :: calificación: 5.00 :: visitas: 266 agregar a favoritos
Registrarse para votar. 1 puntos2 puntos3 puntos4 puntos5 puntos6 puntos7 puntos8 puntos9 puntos10 puntos | Puntaje actual: 6.00
una_columnados_columnasreducir_letraaumentar_letravista_scrollver impresion con acordesver impresion sin acordes
----------------------------------------------------------------------------------------------
Sin información gráfica sobre los acordes. Dejá tu comentario para que la actualicemos!!!.
----------------------------------------------------------------------------------------------



Intro:


e--------8---6s8----------15-------------13s15-13-------------------------
B--6s8-8---8--------13-16----16--13-13-------------16--13s15/--13--11-----
G-------------------------------------------------------------------------
D-------------------------------------------------------------------------
A-------------------------------------------------------------------------
E-------------------------------------------------------------------------


e-----------------------------------------------8--10---10-----------8-------
B-------------------------------------------6s8------10-----10--8-10--10-----
G--7p5--------5--3s5--3---0-0--2h3--0----------------------------------------
D------7-5--8----------------------------------------------------------------
A----------------------------------------------------------------------------
E----------------------------------------------------------------------------


e--------3-6--3-6-3v----10-9-8----------------------------------------------------------
B--4s6-6-----------------------12s13-12--10s12--10-8---------------------3-5-6-5-3------
G---------------------12----------------------------------3s5-3-2-0-2-3-5---------6-5---
D---------------------------------------------------------------------------------------
A---------------------------------------------------------------------------------------
E---------------------------------------------------------------------------------------


e---------------3--1-------||
B---------2s3-3--3---2-----||
G---3-0-3------------------||
D--------------------------||
A--------------------------||
E--------------------------||





Esta es una transcripcion personal de un usuario de www.musicayamigos.com - El material contenido en esta pagina es para exclusivo uso privado, quedando prohibida su reproduccion o retransmision, asi como su uso con fines comerciales.
Compartí con tus amigos esta canción en tu Facebook
Poné el link en tu página o en foros!!!!
Para MySpace:
Para Foros:
Se debe estar registrado y logueado para recomendar esta canción o escribir una dedicatoria...
Musica y Amigos.com, el mejor sitio para encontrar y compartir letras de canciones, con sus correspondientes acordes para guitarra y piano. Registrate en nuestro foro y enterate cómo agregar tus propias transcripciones. No te olvides de votar para calificar la calidad de las letras
Palabras utilizadas para encontrar esta página:
Real de Catorce, Azul, letra de Azul de Real de Catorce, letras, letra, acordes, canciones, letras de cancion, lyrics, cancion, grupo, banda, cantante, tablatura, partitura, tocar con guitarra, tocar con piano, tocar con bajo, armónica, teclado, bajo, ejecutar, estudiar música
Ver más canciones de : Real de Catorce
No hay Comentarios :(
Registrate para Agregar Comentarios...