No estás identificado como Usuario de Mya, Si no estás registrado podes hacerlo acá: Registrarse

Usuarios activos:
tangos(cerca de 1 hora) |elcaziani(cerca de 4 horas) |Raul(cerca de 17 horas) |carbonito(cerca de 18 horas) |domenico1560(cerca de 19 horas) |

Identificacion de Usuario

Olvidé mi clave
Viendo 1 - 9 de un total de 5000
1 2 3 4 5 »
Actualizar
organizacionsomos@hotmail.com Osvaldo 16/11/2014 - 19:26
PARA VIVIR gningenieria 15/11/2014 - 23:02
GNINGENIERIA gningenieria 15/11/2014 - 23:02
FLOR DE FANGO Angeleusebio 05/11/2014 - 10:02
Todo marca error, mejora la pagina porque no tiene gracia! TonyRain 08/10/2014 - 19:02
cuisesargentinos AlfredoMarioFigueras 15/09/2014 - 17:33
Podria ser posible, la cancion Mujeres divinas sacarla en Re menor? Bernardo 05/09/2014 - 13:35
los iracundos perico 02/08/2014 - 13:42
tangos halconxxx 25/07/2014 - 22:17

El primer tonto | Joan Sebastian versión con acordes para guitarra

Buscá Otra canción en MyA!!!
(418) julian :: comentarios: 0 :: calificación: 5.00 :: visitas: 3655 agregar a favoritos
Registrarse para votar. 1 puntos2 puntos3 puntos4 puntos5 puntos6 puntos7 puntos8 puntos9 puntos10 puntos | Puntaje actual: 6.00
una_columnados_columnasreducir_letraaumentar_letravista_scrollver impresion con acordesver impresion sin acordes
----------------------------------------------------------------------------------------------
Sin información gráfica sobre los acordes. Dejá tu comentario para que la actualicemos!!!.
----------------------------------------------------------------------------------------------



bueno aqui les dejo este tab de esta rola q hace llorar
a todas las chavas, este rola nosotros la tocamos con circulo de sol
solo que en ves de tocar 'Am'  se toca 'C', SON DOS TIEMPOS EN CADA NOTA DEL CIRCULO
ahi les indico cuando entra la segunda lira tocando el circulo de 'G'
¡¡¡suerte!!!

ahhh!!  esta cancion se la dedico a una niña hermosa  a ti RUBY

              aqui entra la segunda lira
                |
                |
               \ /
                V

e|---7-7-5-7-5--3--3-3-2-3-2-0----0-0--0-8---7-8-10-8-10-8-7-|
B|------------------------------------4----------------------|
G|-----------------------------------------------------------|
D|-----------------------------------------------------------|
A|-----------------------------------------------------------|
E|-----------------------------------------------------------|

e|---7-7-5-7-5--3--3-3-2-3-2-0----0-0--0-8---7-8-10-8-10-8-7-|
B|------------------------------------4----------------------|
G|-----------------------------------------------------------|
D|-----------------------------------------------------------|
A|-----------------------------------------------------------|
E|-----------------------------------------------------------|


este requinto es a media cancion , es casi lo mismo , pero si varia un poquito
e|---7-5-7-5--3---3-2-3-2--0----0-0---0-8---7-8-10-8-10-8-7----|
B|----------------------------------4--------------------------|
G|-------------------------------------------------------------|
D|-------------------------------------------------------------|
A|-------------------------------------------------------------|
E|-------------------------------------------------------------|

ESPERO QURE LES HAYA GUSTADO Y QUE LES HAYA SALIDO BIEN
LO QUE SUGIERAN A MI CORREO POR FAVOR.
RUBY ME ENCANTAS!





Esta es una transcripcion personal de un usuario de www.musicayamigos.com - El material contenido en esta pagina es para exclusivo uso privado, quedando prohibida su reproduccion o retransmision, asi como su uso con fines comerciales.
Compartí con tus amigos esta canción en tu Facebook
Poné el link en tu página o en foros!!!!
Para MySpace:
Para Foros:
Se debe estar registrado y logueado para recomendar esta canción o escribir una dedicatoria...
Musica y Amigos.com, el mejor sitio para encontrar y compartir letras de canciones, con sus correspondientes acordes para guitarra y piano. Registrate en nuestro foro y enterate cómo agregar tus propias transcripciones. No te olvides de votar para calificar la calidad de las letras
Palabras utilizadas para encontrar esta página:
Joan Sebastian, El primer tonto, letra de El primer tonto de Joan Sebastian, letras, letra, acordes, canciones, letras de cancion, lyrics, cancion, grupo, banda, cantante, tablatura, partitura, tocar con guitarra, tocar con piano, tocar con bajo, armónica, teclado, bajo, ejecutar, estudiar música
Ver más canciones de : Joan Sebastian
No hay Comentarios :(
Registrate para Agregar Comentarios...