No estás identificado como Usuario de Mya, Si no estás registrado podes hacerlo acá: Registrarse

No estás logueado con tu Facebook, ingresá

Usuarios activos:
bochin(cerca de 8 horas) |danisolo(cerca de 21 horas) |wawer(1 día) |matiasfornogeo(cerca de 3 días) |Osvaldo(cerca de 3 días) |

Identificacion de Usuario

Olvidé mi clave
Viendo 1 - 9 de un total de 5000
1 2 3 4 5 »
Actualizar
Oblivion Jorgesito 11/04/2014 - 09:18
problemas para loguearme, solo pude entrar con firefox, no se si es mi compu o a todos les pasa, desde ayer javi29 07/04/2014 - 20:53
ojos de cielo Maxiii10 05/04/2014 - 10:29
lucia suarec330 27/03/2014 - 17:11
Letras de Canciones Augus_2013 24/02/2014 - 14:31
que tiempos aquellos cuando yó le pedía una música a javi y me las sacaba al toque ... por donde andarás ? viejo amigo tangos 19/02/2014 - 16:43
por donde andará javi que nó me saca las canciones que le pedí ... ( tangos ) tangos 17/02/2014 - 11:44
mecano hijo de la luna mikikar 27/01/2014 - 13:27
ola juangviz 23/01/2014 - 14:15

Ya no me acuerdo | Estopa versión con acordes para guitarra

Buscá Otra canción en MyA!!!
(397) julian :: comentarios: 0 :: calificación: 5.00 :: visitas: 1147 agregar a favoritos
Registrarse para votar. 1 puntos2 puntos3 puntos4 puntos5 puntos6 puntos7 puntos8 puntos9 puntos10 puntos | Puntaje actual: 6.00
una_columnados_columnasreducir_letraaumentar_letravista_scrollver impresion con acordesver impresion sin acordes
----------------------------------------------------------------------------------------------
Sin información gráfica sobre los acordes. Dejá tu comentario para que la actualicemos!!!.
----------------------------------------------------------------------------------------------



Este 'finger picking' me ha costado su tiempo sacarlo y perfeccionarlo ,pero ha
valido la pena ya que es muy bonito.El primer acorde de esta canción va del
reves y la canción se toca con un puente para que suene igual o si no afinen la
guitarra en re#.Si teneis alguna sugerencia o correccion enviadme un mail.
ay va:

-------------0---------------1--------------0------------------------0---------
-------------1---------------3--------------1-------------------1--------------
-------------2---------------2--------------2-----------------2---2----2---2---
-------------2-----3---2-----0--------------2---------------2------------2---2-
-------------0------------------------------0-------------0--------------------
-------------0------------------------------0----------------------------------
Esta mañana,                    ya no me acordaba como tocaban    tus    dedos


---------------------0---------------------------------------0-----------------
-------------------3---3-------------1-------------------1---------------------
-----------------2-------2---------0---0---------------2---2---2---2-----------
3---2---0------------------------2-------2-----------2-----------2---2---------
-------------------------------3-------------------0---------------------------
-------------------------------------------------------------------------------
                 esa   guitarra   que   era        para   mi   tu   cuerpo.


-------------------------0-------------------------------------0---------0-----
----------1----------------1-------------1-----------------1-------------------
--------0---0----------0-----0---------2---2-------------2---2---2---2---------
------2-------2------2---------------2-------2---------2-----------2---2-------
----3--------------3---------------0-----------------0-------------------------
-------------------------------------------------------------------------------
  Ya  no  me  acordaba  lo  que  sentía ,    cuando acariciaba tu  pelo.

Puente (solo notas):

LAm     REm        Sol
   Ya no me acuerdo,
LAm         REm        Sol
   si tus ojos eran marrones o negros,
LAm                REm                      MIm
como la noche o como el día en que dejamos de vernos,
LAm                REm          MIm
solo recuerdo que llovía y que quedamos ,
DO          REm
en la parada del metro

ESTRIBLLO:

REm          REm                  MIm
   Pero haciendo un gran esfuerzo aún veo,
 DO                    Sol
tu mirada en cada espejo,
    REm
de cada ascensor,
   LAm                       MIm
donde cada noche me sube hasta el cielo
DO            REm
de moteles invernadero
MIm           DO          MI
donde se jura algo tan efimero.

(notas puente)
Ya no me acuerdo
ni de tu risa , ni de tu prisa por darme un beso,
ni que boton de tu camisa desabrochabas primero,
ni que dulce rumba me bailabasa cuando querias
robarme el sueño y dicen que el tiempo...
LAm           MIm              DO
y el olvido son como hermanos gemelos
REm            Sol
que vas echando de más lo que un día
          MIm
echaste de menos,
      REm          MIm                LAm
y yom que culpa tengo si ya no me acuerdo........

(ESTRIBILLO)
.





Esta es una transcripcion personal de un usuario de www.musicayamigos.com - El material contenido en esta pagina es para exclusivo uso privado, quedando prohibida su reproduccion o retransmision, asi como su uso con fines comerciales.
Compartí con tus amigos esta canción en tu Facebook
Poné el link en tu página o en foros!!!!
Para MySpace:
Para Foros:
Se debe estar registrado y logueado para recomendar esta canción o escribir una dedicatoria...
Musica y Amigos.com, el mejor sitio para encontrar y compartir letras de canciones, con sus correspondientes acordes para guitarra y piano. Registrate en nuestro foro y enterate cómo agregar tus propias transcripciones. No te olvides de votar para calificar la calidad de las letras
Palabras utilizadas para encontrar esta página:
Estopa, Ya no me acuerdo, letra de Ya no me acuerdo de Estopa, letras, letra, acordes, canciones, letras de cancion, lyrics, cancion, grupo, banda, cantante, tablatura, partitura, tocar con guitarra, tocar con piano, tocar con bajo, armónica, teclado, bajo, ejecutar, estudiar música
Ver más canciones de : Estopa
No hay Comentarios :(
Registrate para Agregar Comentarios...